Ate quando

Banda nova alianca

Intro:

E|--------0-----0-------------0------0--------|
B|-----3-----------3-------3------------3-----| (6x)
G|--2--------2----------0---------0-----------|
D|--------------------------------------------|
A|--------------------------------------------|
E|--------------------------------------------|


Verso:

E|--------0-----0-------------0------0--------|
B|-----3-----------3-------3------------3-----|
G|--2--------2----------0---------0-----------|
D|--------------------------------------------|
A|--------------------------------------------|
E|--------------------------------------------|


D/F#            G
Até quando seu coração
D/F#          G
Ficará tão fechado a Cristo?
D/F#           G
Insistindo em dizer não
D/F#          G           D/F#   G
Que orgulho é esse amigo?
D/F#               G
O seu ódio sua solidão
D/F#               G
Não o deixa ver o caminho
D/F#                  G
Que conduz para a salvação
D/F#              G
E se perde por entre espinhos

Refrão:
Bm        A               G
Deus é a paz que você procura
                        Bm
Não importa sua situação
        A           G
Ele o chama a toda hora
                        Bm
Dê ao menos uma resposta
Bm        A               G
Deus é a paz que você procura
                        Bm
Não importa sua situação
        A           G
Ele o chama a toda hora
                        Bm
Dê ao menos uma resposta
           A               G
La la la la   la la la la la
                        Bm
Dê ao menos uma resposta
            A               G
La la la la   la la la la la

O seu ódio...

Deus é a paz...

Até quando...
        D/F#          G        D/F#         G
Deus é Bom Deus é Pai Seu Amor sobre mim...
        D/F#        G       D/F#         G
Deus é Bom Seu Amor Sua Paz sobre mim...
        D/F#
Deus é Bom...

    Contador de Cliques