banda-som-de-deus-a-pedra-rolou

A pedra rolou

Banda som de deus


e|---------------------------|----------------------------|----------10-----10-8-7/8/7----|-------10-
b-8~~8~~8-8-7-5-3~~1~-0-----|----8-8-8-7-8-10-8-10-12br~~|--8-8-7-8----8-7-------------8~|8-7-8-----
g-----------------------2-0-|----------------------------|-------------------------------|----------
d---------------------------|----------------------------|-------------------------------|----------
a---------------------------|----------------------------|-------------------------------|----------
e|---------------------------|----------------------------|-------------------------------|----------


e-8-7-7/8~-7------------------------------------------------------------------|
b-------------10--8--8~~------------------------------------------------------|
g-----------------------------------------------------------------------------|            
d-----------------------------------------------------------------------------|
a-----------------------------------------------------------------------------|
e|-----------------------------------------------------------------------------|



 G              C      D            G
A MORTE FOI VENCIDA, JESUS RESSUSCITOU
                       C                G
HOJE EU CANTO A NOVA VIDA, POIS FELIZ ESTOU
                   C    D         G
PASSANDO SE TRES DIAS, ELE RESSURGIU
         G         C   D         G
NOS TROUXE A SALVAÇÃO E DOR SUMIU      ---contra baixo ---3--4--5--


Am                            Em
PELO TEU SANGUE DERRAMADO NA CRUZ
 Am                            Em 
EM PLENA GLÓRIA VIVE E REINA JESUS
 C                      G      C               G
LÁGRIMAS JA NÃO EXITEM MAIS E TEMOR TAMBÉM NÃO HÁ
    C                                      D
A PEDRA QUE O PRENDIA JA NÃO ESTA EM SEU LUGAR


G          D            Em
A PEDRA ROLOU, ROLOU ROLOU
     G            D      Em
A PEDRA ROLOU, ROLOU ROLOU
        C          D         G
NO TERCEIRO DIA JESUS RESSUCITOU


G              C      D            G
A MORTE FOI VENCIDA, JESUS RESSUSCITOU
                       C                G
HOJE EU CANTO A NOVA VIDA, POIS FELIZ ESTOU
                   C    D         G
PASSANDO SE TRES DIAS, ELE RESSURGIU
         G         C   D         G
NOS TROUXE A SALVAÇÃO E DOR SUMIU     contra baixo ---3--4--5--


Am                  Em   Am               Em
EM NOSSO MEIO ELE ESTÁ, VINDE TODOS O ADORAR
         C               G
A TUA PALAVRA VAMOS PROCLAMAR
    C                G
O TEU PERDÃO VAMOS VIVER
     C                  D
E EXALTADO SERÁ ETERNAMENTE

Contador de Cliques

SIDE BAR

Música Católica no Palco Católico - 2015-2019 © Todos os direitos reservados

Solmaster - Criação de Sites