Amor incomparavel

Banda som de deus

Intro 2x: D9  A9  G

D9                    A9            Bm7          G
Nada tenho em minhas mãos, quando estou longe de Ti
         D9     A9        Bm7         G
Só me resta o vazio, o silêncio, a solidão

Em                                        G
Solidão que há em mim, já não sei me controlar
Em                                    G
O tempo vai passando, isso tenho que mudar

         Em                    Bm7            G
Abro a janela do meu quarto, vejo pessoas andando nas ruas
        A9               G           D9         G        A9     D9  A
Pra lá e pra cá, e em cada face que vejo, Deus ali posso encontrar

D9                              A9
Amor incomparável, Deus tem por mim
D9                      G              A9
Amor tão grande assim, só Deus pode me dar
G                         D9              E
Sozinho já não ando mais, minha vida vem cuidar
      G                   A9         G          D9
Sua presença me invade, um amor por toda eternidade

Bm7    D         E   Bm7   D     E
Escuridão já não há, Sinto Deus aqui
       G                     Bm          E    G        A       D
Sua presença me acolhe, hoje Deus me escolhe, amor assim, só Deus

E|-------------------------------------------------------------------------------------------------------------
B|---------------/10~~-----10--8--7----------------------------------------3-------------5-----------3~~-------
G|-----------------------------------------9~~-----7--6-7~~--------2--------------2--------------2-------------
D|-------------------------------------------------------------------------------------------------------------
A|-------------------------------------------------------------------------------------------------------------
E|-------------------------------------------------------------------------------------------------------------


E|-------------------------------------------------------------------------------------------------------------
B|------5--3--------7---5--------10~~--------------------------------------------------------------------------
G|-2-2---------2------------2----------------------------------------------------------------------------------
D|-------------------------------------------------------------------------------------------------------------
A|-------------------------------------------------------------------------------------------------------------
E|-------------------------------------------------------------------------------------------------------------


E|-----------------10p14H10*8vezes--------------------------------------------------------------------~--------
B|----10---*10-------------------------------------------------------------------------------------------------
G|-------------------------------------------------------------------------------------------------------------
D|-------------------------------------------------------------------------------------------------------------
A|-------------------------------------------------------------------------------------------------------------
E|-------------------------------------------------------------------------------------------------------------


E|------------------------------------------------------------------------------14-15-16-17--------------------
B|--------15b-(17)-----------15b(17)~~-------15b-15~~-----17b---17~~----17b--------------------17b-r-15~~------
G|-------------------------------------------------------------------------------------------------------------
D|-------------------------------------------------------------------------------------------------------------
A|-------------------------------------------------------------------------------------------------------------
E|-------------------------------------------------------------------------------------------------------------


E|-17b---17~~--------------------------------------------------------------------------------------------------
B|-------------------------------------------------------------------------------------------------------------
G|-------------------------------------------------------------------------------------------------------------
D|-------------------------------------------------------------------------------------------------------------
A|-------------------------------------------------------------------------------------------------------------
E|-------------------------------------------------------------------------------------------------------------

    Contador de Cliques