Alegria eterna

Singlecore

Intro 2x: F Dm Am

C
Se eu me voltar pra Ti
                          Am
Se o meu clamor tiver sinceridade
C
Se eu confiar em Ti
                     Am
Se a minha vida estiver em Tuas mãos

F       Dm
O Teu amor
F          G4
Me sustentará

            C
Se eu Te adorar
                 Am
Minha face Te contemplará
                    F
Minha vida se transformará
Dm                     G
Tua alegria irá me encher

( F Dm Am ) (2x)


E|----------------------------------------|
B|--------------------------------------8-|
G|--5-5-5-7----5-5-5-4----5-5-5-7--5-4-4--|
D|-5-5-5------5-5-5------5-5-5----5-------|
A|----------------------------------------|
E|----------------------------------------|


E|------------------------------------------|
B|--------------------------------------8/5-|
G|--5-5-5-7----5-5-5-4----5-5-5-7--5-4-4----|
D|-5-5-5------5-5-5------5-5-5----5---------|
A|------------------------------------------|
E|------------------------------------------|


C
Se eu só buscar a Ti
                        Am
Se as minhas lágrimas tocarem Teu coração
C
Se eu esperar em Ti
                        Am
Se os meus ouvidos escutarem Tua voz

F       Dm
O Teu amor
F          G4
Me sustentará

            C
Se eu Te adorar
                 Am
Minha face Te contemplará
                    F
Minha vida se transformará
Dm                     G
Tua alegria irá me encher

            F   Dm           Am                F  Dm            G4
Se eu te adorar, se eu te adorar, se eu te adorar, se eu te adorar

Solo: F Dm Am F Dm G

    Contador de Cliques