the-flanders-antes-de-dormir

Antes de dormir

The flanders

Intro:

E|---------------------------------------------------|
B|---8-11-9-8-11------8-11-9-8-----------8-11-9-8----|
G|-8----------------8----------10-8----8----------10-|
D|---------------------------------------------------|
A|---------------------------------------------------|
E|---------------------------------------------------|


E|----------------------------------------------------------|
B|----------8-11-9-8-11------8-11-9-8-----------8-11-9-8----|
G|------7-8----------------8----------10-8----8----------10-|
D|-8-10-----------------------------------------------------|
A|----------------------------------------------------------|
E|----------------------------------------------------------|


Eb                      Ab    Bb
Mesmo tão pequeno ainda me lembro
Eb		      Cm       Bb
Daqueles momentos, na hora de dormir
Eb		        Ab
Em teus braços quentes, me levava pra cama
Eb			     Ab         Bb
Colocava meu pijama, eu não sabia me vestir

Eb		         Ab     Bb
Com carinho esquentava a mamadeira
Eb		     Cm	        Bb
E cheia de amor, ajeitava o cobertor
Eb	 		     Ab
E quando tudo que eu pedia, era pra ouvir uma canção
Eb			     Ab	       Bb
Minha mãe sempre dizia: preste muita atenção

Pré-refrão:
Cm			 Ab
Vou pegar a guitarra e baixar a afinação
Cm			      Ab         Bb
Um "ampli" valvulado, dar um grau na distorção

Refrão:
Eb
Aqui a cuca não tem vez, ela não pega ninguém
Ab			      Cm           Bb
Pois os anjos de Deus vão proteger o meu neném
Eb
E se o boi, boi, boi da cara preta aparecer
Ab		  		        Bb
Eu rezo o santo anjo e boto o bicho pra correr


E|---------------------------------------------------------------------|
B|---------------------------------------------------------------------|
G|---------------------------------------------------------------------|
D|---------------------------------------------------------------------|
A|-6---------------6---------------6-----------------------------6-----|
E|---9-8--9-9-9-6----9-8--9-9-9-6----9-8-6p8r6-4p6--6-6-6--6-6-6---8-6-|



Eb			  Ab		 Bb
A criança que tem Deus dentro do seu coração
Eb		      	      Cm	Bb
Não tem nem medo de escuro, nem de assombração
Eb			      Ab	   Bb
Vai sempre bem na escola, tem respeito, educação
Eb			      Cm	    Bb
Quando tem prova não cola é um moleque sangue bom
Eb			  Ab		 Bb
E toda noite até hoje, o que mamãe me ensinou
Eb				Cm	     Bb
Trago em meu pensamento vivo na fé e assim eu vou
Eb		        Ab	  Bb
E quando a molecada me pede pra cantar

 Eb			     Ab		    Bb   A|-------10-8-6---
Eu chamo a minha banda e a gente bota pra quebra E|-6p8-6--------6-


Refrão:
 Eb
Aqui a cuca não tem vez, ela não pega ninguém   |
 Ab			  Cm             Bb
Pois os anjos de Deus vão proteger o meu neném  |
 Eb						  X2
E se o boi, boi, boi da cara preta aparecer     |
 Ab					Bb
Eu rezo o santo anjo e boto o bicho pra correr  |

Solo

E|---------------------------------------------------------|
B|---------------------------------------------------------|
G|---------------------------------------------------------|
D|-10-1012-1213-1315-1517--10-1012-1213-1312-128-|
A|---------------------------------------------------------|
E|---------------------------------------------------------|


E|---------------------------------------
B|-11b13-11--9-8-9-8-6-------------------
G|---------------------8p10r8-7-7p8r7~~--
D|---------------------------------------
A|---------------------------------------
E|---------------------------------------


E|-------------------------------------------------------------11-11-11-10----
B|-------------------------------------------------------------------------11-
G|-10-10-10-1013-1312-128-8-8-8-815-1513-138-817-1715----------------
D|----------------------------------------------------------------------------
A|--8--8--8--811-1110-106-6-6-6-613-1311-116-615-1513----------------
E|----------------------------------------------------------------------------


Refrão: 
 Eb
Aqui a cuca não tem vez, ela não pega ninguém   |
 Ab			  Cm             Bb
Pois os anjos de Deus vão proteger o meu neném  |
 Eb						  X2
E se o boi, boi, boi da cara preta aparecer     |
 Ab					Bb
Eu rezo o santo anjo e boto o bicho pra correr  |

Solo Final

E|---------------------------------------------------|
B|---8-11-9-8-11------8-11-9-8-----------8-11-9-8----|
G|-8----------------8----------10-8----8----------10-|
D|---------------------------------------------------|
A|---------------------------------------------------|
E|---------------------------------------------------|


E|---------------------------------------------------11-10----|
B|----------8-11-9-8-11------8-11-9-8-----------8-11-------11-|
G|------7-8----------------8----------10-8----8---------------|
D|-8-10-------------------------------------------------------|
A|------------------------------------------------------------|
E|------------------------------------------------------------|

Contador de Cliques

SIDE BAR

Música Católica no Palco Católico - 2015-2017 © Todos os direitos reservados

Solmaster - Criação de Sites