the-flanders-ladeira-abaixo

Ladeira abaixo

The flanders

Eb          F        G#                    Bb         Eb             F        G#   Bb
 Tantas oportunidades se tranformaram em dificuldades pois ja não queria decidir
Eb                     Bb                         G#                    Bb   (Bb) 
 Quantas portas abertas, estradas tão desertas, e ai qual o caminho a seguir
Eb         F               G#                Bb           Eb            F           G#  Bb  
 Ir embora pra bem longe ou aceitar que esse sempre foi o seu lugar, tentar se esconder
Eb              F          G#                  Bb                   Eb        F           G#  Bb
 Poderia ter roubado a cena resolvido todos os seus problemas, mais ele não sabia o que fazer
Eb           Bb                   G#                      Bb
 Tão indeciso, tão indeciso, entre alcançar o céu ou mergulhar num precipicio  2x


Solo: (Eb Bb G# Bb)


E|--------------------------11---------------------------------|       
B|--------11-11-11^---------13--11--9--13--11--------|
G|---8---------------------------------------------------------|
D|--------------------------------------------------------------|
A|--------------------------------------------------------------|
E|--------------------------------------------------------------|


E|-------------------------------------------------------------|
B|---------11-11-11^----9---------------------------------|
G|----8--------------------------12--10--8--12--10------|
D|--------------------------------------------------------------|
A|--------------------------------------------------------------|
E|--------------------------------------------------------------|



Eb             F            G#        Bb           Eb          F          G#  Bb  
 Quem pode acordar tão cedo ou continuar dormindo, só você vai poder decidir
Eb       F          G#            Bb          Eb           F             G#  Bb
 Voltar atras ou seguir em frente sem parar escolha qual caminho quer seguir

 Tão indeciso...

Eb     Bb    G#  Bb
 na na na...

Bb G# G Bb Eb

Contador de Cliques

SIDE BAR

Música Católica no Palco Católico - 2015-2017 © Todos os direitos reservados

Solmaster - Criação de Sites