Atencao

Beatrix

* = Pizzicato.

Tom: Dm

Introdução:

G|--------------------------------------------------------------
D|--------------------------------------------------------------
A|-----5~6~5----5-5-5*----6--6-6-6*-6--5-6-5--------------------
E|-----------------------------------------------------1-1-1-1--
(2x)

G|----------------------------------------------------------------
D|----------------------------------------------------------------
A|---5-5----5~6----8-6-5-5---5-3-3--------------------------------
E|----------------------------------------------------------------
(2x)
                Atenção, é hora de comunicar:

	Iniciaram outra guerra sem razão pra começar.
	São as coisas se empilhando, impedindo de enxergar.
	E ainda se perguntam:

	-Meu Deus, aonde o mundo vai parar?

G|--------------------------------------------------------------
D|--------------------------------------------------------------
A|-----5~6~5----5-5-5*----6--6-6-6*-6--5-6-5--------------------
E|-----------------------------------------------------1-1-1-1-- (2x)

G|--------------------------------------------------------------
D|--------------------------------------------------------------
A|---5-5----5~6----8-6-5-5----5-3-3-----------------------------
E|--------------------------------------------------------------
(2x)
	Atenção para a notícia que eu vou dar:
	Invadiram o território e agora vão reivindicar?
	A profecia já foi dada, ninguém mais vai esconder.
	Por que ainda se perguntam:
	-Meu Deus, quem é que vai nos proteger?
G|------------------------------------------------------------------
D|------------------------------------------------------------------
A|-1--1--1--1--1--1--3--3-------------------------------------------
E|------------------------------------------------------------------

G|-------------7--------------------------------------------------
D|-------8-10---10-8-10-8-7-8-7-----7-----------------------------
A|------------------------------------10----10-8------------------
E|---------------------------------------------------10-----------

Refrão:

G|------------------------------------------------------------------
D|------------------------------------------------------------------
A|--5--5-5--5------------------------3--1---------5--3--------------
E|---------------1--1-1--1-----5-5----------5-5---------------------
(2x)
Atenção!
Viver, realizar a Paz que vem de Deus!
(Acreditar)

G|--------------------------------------------------------------------
D|--------------------------------------------------------------------
A|-----5~6~5----5-5-5*--6--6-6-6*~8~6--5-6-5--------------------------
E|---------------------------------------------------------1-1-1-1----
(2x)

O finalzinho da música não saiu...mas acho que dá pra ter uma idéia de como é a música!!

    Contador de Cliques