Retrato

Beatrix

(intro - piano)


    Bm                     A                     G                       F#m
E|-----------------------|---------------------|-----------------------|---------------------|
B|-----------------------|---------------------|-----------------------|---------------------|
G|-----------------------|---------------------|-----------------------|---------------------|
D|-----------4------4----|------4---------4----|------4-------4--------|---4-----3-----------|
A|------5--545------5----|---5--545-----5------|---5-----545----------5|4-----4----4-5-4---2-|
E|---7-------------------|--5------------------|-3---------------------|-----------------5---|
(2x)


Bm      A                  G
Aqui dentro teu silencio grita
          F#m
e não há como explicar

Bm      A                  G
A vida se desfaz em segundos
               F#m
as flores que deixo pra lembrar.

Em          F#m
Pra dizer o que se sente
      G         A
é preciso demonstrar

F#  Bm          A          G
   Agora eu vejo tudo claro
              F#m
por que precisava acontecer
Bm            A            G
Em linhas tortas ele escreve
            F#m
a vida tem que continuar

Em               F#m
Pra dizer o que se sente
      G         A
é preciso demonstrar

      Bm          A
Ainda sinto sua falta aqui
         G          F#m
seu retrato na estante
    Bm
Só amor é luz
         A
e sempre conduz
       G
só o amor
   F#m
suporta....


E|-------------------------------------|
B|-------------------------------------|
G|-------------------------------------|
D|------------------------1-2-1-2-4----|
A|----------1---1-2-4-2-4--------------|
E|--2-0-2-4--4-------------------------|


B5                  A5
Há um segtredo entre eu e você
        G5
que não deixa o amor morrer
      F#5
Nem o tempo pode esconder]

(solo) B5 A5 G5 F#5

    Contador de Cliques