Levanta cabeca

Dunga

Intro: E  B  A (2x) 


e|----------------|---------------
b----------------|---------------
G|----8--9--8-----|-----6--7--6---
D|---9-9------9---|----7-7------7-
A|----------------|---------------
E|----------------|---------------


B*                      A*        E
   Não sei se hoje você viu mais uma vez.
                B*        A*         E
Mais um dia e o sol nasceu foi por você. 
                B*        A*         E
Mais um dia e o sol nasceu foi por você.

B*           A*             E     
Pode ser até   que algo não vai bem,
                  B*
Sei lá, dá uma vontade de chorar!
A*                 E
   Tá difícil segurar.
B*        A*                       E
Liga não!     Neste mundo imundo é mesmo assim.
B*           A*         E9                        
   Liga não!   É mesmo assim.   

A*               B*                  A*
   Lembra que também Ele chorou
B*                 A*
   e sentiu a Sua dor.
G                  F#
Mas também Ele não fez o Seu querer
G                           F#
   e numa cruz morreu por você.

A              B
   Levanta a cabeça!              
A                 B
  É possível tudo recomeçar!
G                 F#                (2x)
 Nem tudo está perdido não!
G                  F#                
   Você pode acreditar!

B  A  E  B  A  E 

Volta ao começo.


      B*
e|-----------|   
b|-----------|
G|-----8-----|
D|-------9---|
A|-------9---|    
E|--7--------|


      A*  

e|-----------|
b|-----------|
G|-----6-----|
D|-------7---|
A|-------7---|
E|--5--------|


Os acordes B* e A* 
é usado na gravação aovivo e de estudio!

    Contador de Cliques