-

Livre acesso

Eliana ribeiro

Intro: G  D/G  Am  G  D/G  Cm


E|-----10------------10-------------------------10-12-----|
B|-12------12-10---------10-12-13--13------------10-------|
G|--------------------------------------------------------|
D|--------------------------------------------------------|
A|--------------------------------------------------------|
E|--------------------------------------------------------|


E|-----10------------10-------------------------10-12--11-|
B|-12------12-10---------10-12-13--13---------------------|
G|--------------------------------------------------------|
D|--------------------------------------------------------|
A|--------------------------------------------------------|
E|--------------------------------------------------------|


   G                   D/G
Eu abro as portas do meu coração,
   Am                  D   D/F#
Te dou livre acesso Senhor.
   G                    D/G
Eu abro as portas do meu coração,
   Am     Am/G            D/F#   D
Te dou....          livre acesso.
   G                   D/G
Eu abro as portas do meu coração,
   Am                  D   D/F#
Te dou livre acesso Senhor.

   G                    D/G
Eu abro as portas do meu coração,
   Am     Am/G              D
Te dou....          livre acesso.

C                D               Em    C    D        Em
  Pois com teu braço forte   realizas prodígios,
C                D                    G     D/F# Em  Am   Am/G          D
  Pois com teu braço   forte Senhor      Me ergues do  chão.

C                  D              Em    C    D        Em
  Pois com teu braço forte   realizas prodígios,
C                  D               G    D/F# Em  Am     D              G
  Pois com teu braço   Forte Senhor       me ergues do  chão.

(Intro)

(Repete Toda a Música)

(Intro)

Contador de Cliques