missionario-shalom-a-santidade-eu-vou-buscar

A santidade eu vou buscar

Missionario shalom

Intro: Em D C (2x)

Em                   D            C
 Os meus dias não estão perdidos, eles tem sentido e direção
Em               D          C                 B     D#   F# (Só a tônica)
 Eu não vivo por aí, a toa, sei aonde está meu co - ra - ção
Em                  D            C
 Eu tentei buscar em todo lugar, algo que pudesse saciar
Am7                             B7
 A sede de felicidade que existe em meu coração

Refrão:
Em               C          G         D
 Então eu encontrei aquele que deu a vida por mim
Em           C                 G           A       Em
 Que me fez compreender que a morte já não é   o   fim
           C               G         D
 Hoje sem medo eu quero a minha vida ofertar
Em         C           G            D
 Em minha juventude a santidade eu vou buscar

Interlúdio: Em  C  G  D

(Rap)
Em
Tô de passagem nessa terra, o que o mundo me oferece não me interessa.
Jovem brasileiro? Não, sou estrangeiro!
      			     G	       D/F#       Em
Passaporte carimbado pelo sangue derramado no madeiro.
                           Em
Por isso vivo em santidade, alimentando o espirito e mortificando a
      Em
carne. Eu até gosto daqui, mas não sou daqui.
Em                          G            D/F#     Em
 Malas prontas almejando a Glória que estará por vir.


Em                   D            C
 Os meus dias não estão perdidos, eles tem sentido e direção
Em               D          C                  B    D#    F# (Só a tônica)
 Eu não vivo por aí, a toa, sei aonde está meu co - ra - ção
Em                  D            C
 Eu tentei buscar em todo lugar, algo que pudesse saciar
Am
 A sede de felicidade que existe em meu coração


    Em                      G       D/F#      D
 Então eu encontrei aquele que deu   a  vida por mim
Em           C                 G           C#   D    Em
 Que me fez compreender que a morte já não é   o   fim
           C               G         D
 Hoje sem medo eu quero a minha vida ofertar
Em         C           G            D
 Em minha juventude a santidade eu vou buscar

Em              C           G         D
 Então eu encontrei aquele que deu a vida por mim
Em           C                 G           C#   D    Em
 Que me fez compreender que a morte já não é   o   fim
           C               G         D
 Hoje sem medo eu quero a minha vida ofertar
Em         C           G            D
 Em minha juventude a santidade eu vou buscar

Solo: Em C G D (4x)


E|------------------------------------------|
B|-12-12-12-12-12b13r12-10-10b12r10--14/7---|
G|------------------------------------------|
D|------------------------------------------|
A|------------------------------------------|
E|------------------------------------------|


E|-7/12-12-12-12-10-------------------------|
B|------------------12b13-10/7---7----------|
G|---------------------------------7-9------|
D|------------------------------------------|
A|------------------------------------------|
E|------------------------------------------|


E|------------------------------------------|
B|-12-12-12-12-12b13r12-10-10b12r10--14/7---|
G|------------------------------------------|
D|------------------------------------------|
A|------------------------------------------|
E|------------------------------------------|

                               H

E|-7/12-12-12-12-10-----------(5)-----------|
B|------------------12b13-10--(5)-(x4)------|
G|----------------------------(5)-----------|
D|------------------------------------------|
A|------------------------------------------|
E|------------------------------------------|

Contador de Cliques

SIDE BAR

Música Católica no Palco Católico - 2015-2019 © Todos os direitos reservados

Solmaster - Criação de Sites