the-flanders-a-festinha

A festinha

The flanders

Intro: A E D E A

            A              E
Quero ver você na minha festinha
                D   E              A     E
Dos meus quinze anos com toda a turminha
               A              E
Lá vai estar rolando um som maneiro
         D    E                 A
Não é Caetano, não é nenhum pagodeiro
                E
É o CD que eu ganhei...
            
              A                       E
O CD que eu ganhei (eu não sei eu não sei!!) (3X)
Riff1

E-------------------------------------------------------
B-------------------------------------------------------
G-------------------------------------------------------
D-------------------------------------------------------
A-7-7-7-7-7-7-7--6-7-6-7-6-7--7-7-7-7-------------------
E-5-5-5-5-5-5-5--4-5-4-5-4-5--5-5-5-5-------------------

A                                     E
Vou mandar um hardcore e falar para você
                                          A
De um lance que não é tão difícil de entender
                D                 A
Basta começar pogar e abrir o coração
                    E                         A
E a mensagem vai chegando te invadindo, meu irmão
                    D        E
E a mensagem vai chegando... Te invadindo meu irmão!!!
Riff2

E------------------------------------------------------------------
B------------------------------------------------------------------
G------------------------------------------------------------------
D---------------------9-9-9-9---------------------9-7-9-7-9-7------
A--7-7-7-7-7-7-7-7-7--7-7-7-7--7-7-7-7-7-7-7-7-7--7-5-7-5-7-5-7----
E--5-5-5-5-5-5-5-5-5-----------5-5-5-5-5-5-5-5-5--------------5----

A                                                E
Ser cristão de modo algum quer dizer que é ser careta
                                          A
O que importa não é a roupa nem a tua camiseta
                        D                 A
Para constatar o que eu digo é só ligar a TV
                 E                        A
Muito nego de terninho tentando enganar você
                     D    E                   A
Muito neguinho de terno... Tentando enganar você!!!
A F#m D E
A                                      F#m
Godzilla e outros bichos arrasaram o Japão
                   D             E          A
Nos states e outras bandas foi um forte furacão
A                                      F#m
No país do futebol quem chegou pra detonar
                  D           E           A
É o Flanders punk rock esse negócio vai pegar
                   D         E
Punk cristão e Hardcore!!!! ...
A E A D A E A D E E A
Diolinda (Prelúdio)
Intro: D A G A D
D           A     G     A        D
Diolinda... ah ah ah ah ah ah... oh oh oh..
D                A     G     A        D
Mas que linda... ah ah ah ah ah ah...

Contador de Cliques

SIDE BAR

Música Católica no Palco Católico - 2015-2018 © Todos os direitos reservados

Solmaster - Criação de Sites