Ao acordar

The flanders

Intro:

e|--------------9----|       
B|------------9---9--|       
G|-------------------| 8x    
D|------10-11--------|       
A|-------------------|       
E|-------------------|       


Quase tudo assim:

e|---------------------------------------------------------------------|
B|---------------------------------------------------------------------|
G|---6-6-6-6-6-6-6-6-6-6-6-6-6-6-6-6-----------------------------------| 2x
D|---6-6-6-6-6-6-6-6-6-6-6-6-6-6-6-6---4-4-4-4-4-4-4-4--6-6-6-6-6-6-6-6|
A|---4-4-4-4-4-4-4-4-4-4-4-4-4-4-4-4---4-4-4-4-4-4-4-4--6-6-6-6-6-6-6-6|
E|-------------------------------------2-2-2-2-2-2-2-2--4-4-4-4-4-4-4-4|


Parte final:

e|--------------------------|
B|--------------------------|
G|-------------8/10-8-------|
D|---8-10-11-4-x-x--x-------|
A|---x-x--x--4-6/8--6-------|
E|---6-8--9--2--------------|


 C#
Tenho que esperar
    F#             G#
Pra a gente se encontrar
C#
Em algum lugar
      F#         G#
Mas o dia vai chegar

      C#
Não consegui mesmo entender
   F#            G#
Porque isso aconteceu
    C#
Quando os teus olhos se fecharam
    F#                  G#    A# C C# F# D# F D#
Foi como se fechassem os meus


e|--------------------------|
B|--------------------------|
G|-------------8/10-8-------|
D|---8-10-11-4-x-x--x-------|
A|---x-x--x--4-6/8--6-------|
E|---6-8--9--2--------------|

 

Refrão: 
 C#                    F#
E eu não poderia mais imaginar
        G#
Minha vida sem você
  C#                 F#
Aqui ao meu lado sempre pensando
 G#
Em me proteger


e|-------------|      e|-------------|
B|-------------|      B|----------9--|
G|--11-10-8-6--|      G|--11-10-8-x--|
D|--x--x--x-x--|      D|--x--x--x-6--|
A|--9--8--6-4--|      A|--9--8--6----|
E|-------------|      E|-------------|


e|-------------|      e|-------------|
B|-------------|      B|----------9--|
G|--11-10-8-6--|      G|--11-10-8-x--|
D|--x--x--x-x--|      D|--x--x--x-6--|
A|--9--8--6-4--|      A|--9--8--6----|
E|-------------|      E|-------------|



  C#
Tenho q aceitar
 F#                G#
O que você me preparou
 C#
E continuar
    F#                G#
Com tudo aquilo que deixou

 C#
É tão difícil entender
 F#            G#
Porque isso aconteceu
   C#               
Quando os teus olhos se fecharam
    F#           G#          A# C C# F# D# F D#
Foi como se fechassem os meus


e|--------------------------|
B|--------------------------|
G|-------------8/10-8-------|
D|---8-10-11-4-x-x--x-------|
A|---x-x--x--4-6/8--6-------|
E|---6-8--9--2--------------|



Refrão:
  C#                    F#
E eu não poderia mais imaginar
        G#
Minha vida sem você
  C#                 F#
Aqui ao meu lado sempre pensando
 G#
Em me proteger


Antes do solo:

e|-------------|      e|-------------|
B|-------------|      B|----------9--|
G|--11-10-8-6--|      G|--11-10-8-x--|
D|--x--x--x-x--|      D|--x--x--x-6--|
A|--9--8--6-4--|      A|--9--8--6----|
E|-------------|      E|-------------|


e|-------------|      e|-------------|
B|-------------|      B|----------9--|
G|--11-10-8-6--|      G|--11-10-8-x--|
D|--x--x--x-x--|      D|--x--x--x-6--|
A|--9--8--6-4--|      A|--9--8--6----|
E|-------------|      E|-------------|



Solo:

e|-----------------------------------|
B|-/7-6-7/9-7-6-7/9-7-6--------------|
G|-/6-6-6/8-6-6-6-8-6-6-8-6-5--------|
D|----------------------6-6-6--------|
A|-----------------------------------|
E|-----------------------------------|


e|-----------------------------------|
B|-/7-6-7/9-7-6-7/9-7-6-7-7----------|
G|-/6-6-6/8-6-6-6-8-8-6-8-8----------|
D|-----------------------------------|
A|-----------------------------------|
E|-----------------------------------|


e|-----------------------------------|
B|-/7-6-7/9-7-6-7/9-7-6--------------|
G|-/6-6-6/8-6-6-6-8-6-6-8-6-5--------|
D|----------------------6-6-6--------|
A|-----------------------------------|
E|-----------------------------------|


e|----------------------------------------|
B|-/7-6-7/9-7-6-7/9-7-6-7-7------------9--|
G|-/6-6-6/8-6-6-6-8-8-6-8-8----11-10-8-x--|
D|-----------------------------x--x--x-6--|
A|-----------------------------9--8--6----|
E|----------------------------------------|



Refrão:
C#                    F#
E eu não poderia mais imaginar
        G#
Minha vida sem você
  C#                 F#
Aqui ao meu lado sempre pensando
 G#
Em me proteger


C#                    F#
E eu não poderia mais imaginar
        G#
Minha vida sem você
  C#                 F#
Aqui ao meu lado sempre pensando
 G#          A# C C# F# D# F D#
Em me proteger


e|--------------------------|
B|--------------------------|
G|-------------8/10-8-------|
D|---8-10-11-4-x-x--x-------|
A|---x-x--x--4-6/8--6-------|
E|---6-8--9--2--------------|

    Contador de Cliques