the-flanders-barata-cascuda

Barata cascuda

The flanders

Intro:                      

e|-------------------------------------------------------------------------------------------------|
B|-------------------------------------------------------------------------------------------------|
G|-7-7-7-7-7-7-7-7-7-7--10-10-10--7---------------7-7-7-7-7-7-7-7-7-7--12-12-12--10-9-9-9-9-9------|
D|-7-7-7-7-7-7-7-7-7-7--10-10-10--7--7-7-7-7-7----7-7-7-7-7-7-7-7-7-7--12-12-12--10-9-9-9-9-9------|
A|-5-5-5-5-5-5-5-5-5-5--8--8--8---5--7-7-7-7-7----5-5-5-5-5-5-5-5-5-5--10-10-10--8--7-7-7-7-7------|
E|-----------------------------------5-5-5-5-5-----------------------------------------------------|


e|-------------------------------------------------------------------------------------------------|
B|-------------------------------------------------------------------------------------------------|
G|-7-7-7-7-7-7-7-7-7-7--10-10-10--7---------------10-10-10-10-10-10-10-10-10-10--12-12-12-12-12-12-|
D|-7-7-7-7-7-7-7-7-7-7--10-10-10--7--7-7-7-7-7----10-10-10-10-10-10-10-10-10-10--12-12-12-12-12-12-|
A|-5-5-5-5-5-5-5-5-5-5--8--8--8---5--7-7-7-7-7----8--8--8--8--8--8--8--8--8--8---10-10-10-10-10-10-|
E|-----------------------------------5-5-5-5-5-----------------------------------------------------|


D                       F           D  A
A festa dos insetos, eu sei que aconteceu
D                            G      F  E               
Num grande formigueiro no jardim o Irineu
D                        F         D  A
Bichos até o teto foi o que me descreveu
F                         G
Um enorme gafanhoto que aqui apareceu

D                     F       D  A
Até Dona Formiga começou a relembrar
D                       G    F E
O dia que escapou de um tamanduá  (tá tá)
D                               F       D  A
E o seu anjo da guarda lhe deu muita proteção
F                            G
Livrando o seu filho o formigão da detetização

D                        F       D  A
De repente ela chegou, a Barata Cascuda
D                        G         F  E
O alvoroço começou eram muitas as perguntas
D                            F          D  A
Por onde você andou e o que foi que aconteceu
F                               G
Perguntaram assustados até que ela respondeu

D                               F         D  A
Na verdade meus amigos o que rolou foi exatidão 
D                                   G      F  E
É que eu conheci um lance, um verdadeiro baratão
D                        F      D  A
Eles me ofereceram e eu caí de paixão
F                             G
Fiquei louca de montão só cheirando detenfol

D          A         F        G
Barata Cascuda sai dessa miribunda
D          A         F         G  G G G
Barata Cascuda isso vai te detonar
D          A      F           G
Barata Cascuda dexa de ser caruda
D          A      F           G  G G G
Barata Cascuda barata sai sai sai

Solo :    


e|----------------------------        -------------------|
B|--3-3-3---------------------        -3-3-3-3-3-3-3h7---|
G|---------5-5-5--4b--4-5-4-5-   3x   -------------------| 1x
D|----------------------------        -------------------|
A|----------------------------        -------------------|
E|----------------------------        -------------------|


D                         F        D   A              
Mas ela se afundou e foi até o fim da festa
D                          G          F   E
Consumindo aquilo que tá barato mais não presta
D                          F           D  A
Até que o grilo falante chegou com a solução
F                             G
Vou chamar o lova-deus pra fazer uma oração viu

D                        F          D  A
Diante desse fato ela parou só pra pensar
D                           G       F E
Vivendo desse jeito não dá pra continuar
D                            F        D  A 
Mas teve amor e força de vontade pra vencer
F                            G
E essa noite ela mudou para nunca mais sofrer

D          A      F           G
Barata Cascuda agora ficou legal
D          A         F             G  G G G
Barata Cascuda de nojenta não tem nada
D          A              F        G 
Barata Cascuda se foi de morte natural
D                  A            F         G  G G G
Quando a dona Rosalinda lhe deu uma chinelada


D          A   F   G
Barata Cascuda uooou
D          A        F           G  G G G
Barata Cascuda isso vai te detonar
D          A          F           G
Barata Cascuda já deixou de ser caruda
D          A      F           G
Barata Cascuda barata sai sai sai

Contador de Cliques

SIDE BAR

Música Católica no Palco Católico - 2015-2018 © Todos os direitos reservados

Solmaster - Criação de Sites