-

Hugo losao

The flanders

Introdução: Baixo e depois entra a guitarra com riff 1

Riff 1

E|-------------------------
B|-------------------------
G|-------------------------
D|--------------5-5--7-7-7-
A|-2--2-4/5-5---5-5--7-7-7-
E|--------------3-3--5-5-5-


(Bm D G A)
Riff 1
A medida que o tempo ia passando
As pessoas já estavam perguntando
O que será que está acontecendo
Com o Hugo como ele está crescendo!!
Riff 1
A barriga fica fora do calção
A camisa já não serve que aflição!
Cento e um, cento e dez, cento e sessenta,
Desse jeito nem a balança te agüenta!!

Solo 1

E|-----------------------------------
B|-0--0-2-3--3h5-3-2-0-2-3--2-0-0----
G|-----------------------------------
D|-----------------------------------
A|-----------------------------------
E|-----------------------------------


Riff 1 + Solo 1
Riff 1
Comer muito não é o ideal
Desse jeito você vai parar no hospital
Pode explodir depois ficar passando mal
É por isso que a gula é um pecado capital
Riff 1
Oh, ê ô!! Hugo losão não come tanto assim
Oh, ê ô!! Hugo losão deixa um "pouquim" pra mim (2x)
Riff 1
Se a desculpa é a tua depressão
A saída não tá na alimentação
Tem que rezar pra não cair em tentação
Deus não entope as artérias do seu coração
Riff 1
Comer muito não é o ideal
Desse jeito você vai parar no hospital
Pode explodir depois ficar passando mal
É por isso que a gula é um pecado capital
Refrão 2x
Riff 1 2x

Contador de Cliques