-

Lembrancas

The flanders

Intro 2x: B5   G#5   F#5   E5   F#5   B5 

B5
Nunca pensei
        G#5
Que ter chegado ao fim

F#5                 E5
Se tornaria mais um recomeço

B5
Busquei em tudo
        G#5
Mas fui te encontrar
                  F#5
Bem mais perto
      E5
Do que eu poderia imaginar

E5                       G#5
Roubadas em troca de nada
    F#5                E5
Me fizeram aprender
      G#5        F#5             B5
Que a vida não existe sem alguém

B5                              F#5
Que em menos de um segundo
                          E5
Transformaria o mundo
                         G#5      F#5
Pra me mostrar o quanto é importante
        B5
perceber
                       F#5
E ver que bem la dentro
                     E5
Um simples pensamento
                       G#5
Se torna muito mais intenso
         F#5       B5
Quando penso em você

Intro:  B5   F#5   G#5   E5   3X
        B5   F#5   G#5   E5   F#5   B5

B5                                  G#5
Quantas lembranças eu não quis trazer
F#5                           E5
Em quantos sonhos deixei de acreditar
B5                                G#5
Talvez por medo de não entender
             F#5
Que as montanhas
          E5
Poderiam ser trocadas de lugar


E5                       G#5
Roubadas em troca de nada
    F#5                E5
Me fizeram aprender
      G#5        F#5             B5
Que a vida não existe sem alguém

B5                              F#5
Que em menos de um segundo
                          E5
Transformaria o mundo
                         G#5      F#5
Pra me mostrar o quanto é importante
        B5
perceber
                       F#5
E ver que bem la dentro
                     E5
Um simples pensamento
                       G#5
Se torna muito mais intenso
         F#5       E
Quando penso em você

G#5  F#5  E5 2x

E
Eu nunca pensei que ter chegado ao fim
G#m11                     F#
Poderia ser melhor pra você e agora melhor pra mim
E
Te procurei em toda parte, em qualquer lugar
G#m11                      F#
E antes esteve bem mais perto de alcançar
E
E eu vou seguir o brilho da tua perfeição
G#m11                     F#
A paz que vem de dentro me mostra a direção
E
Por que ter você faz o meu mundo girar
G#m11                 F#
Agora que o jogo vira e eu quero te provar


E5            G#5           F#5    E5
Afinal, a vida não existe sem você
       G#5        F#5          E5
Meu mundo não resiste sem você.

Base do solo: G#5  F#5  E5 2x


E|-------------------------------------------------------------------------------------|
B|12-12-12-12-12-12-12-12-12-12-12-12-12-12--------------------------------------------|
G|11-11-11-11-11-11-11-11-11-11-11-11-11-11--------------------------------------------|
D|----------------------------------------------------13-13-13-13-13-11-11-11-11-9-9-9-|
A|-------------------------------------------------------------------------------------|
E|-------------------------------------------------------------------------------------|


E|--------------------------------------------------------------------------------------|
B|12-12-12-12-12-12-12-12-12-12-12-12-12-12------------------------------------------|
G|11-11-11-11-11-11-11-11-11-11-11-11-11-11------------------------------- 9-8-------|
D|---------------------------------------------------13-13-13-13-13-11-11-11-11-----9-9-|
A|--------------------------------------------------------------------------------------|
E|--------------------------------------------------------------------------------------|


B5                              F#5
Que em menos de um segundo
                          E5
Transformaria o mundo
                         G#5      F#5
Pra me mostrar o quanto é importante
        B5
perceber
                       F#5
E ver que bem la dentro
                     E5
Um simples pensamento
                       G#5
Se torna muito mais intenso
         F#5       B5
Quando penso em você

Contador de Cliques