-

Namoro na tv

The flanders

Intro:
  D               A               B                 G   

e------5-------5--------5---------5---------5--------5----------5--------5-------      
B---5---5----5--5-----5--5-----5---5-----5---5----5---5------8---8----8---8------
G--7-7---7--7-7---7--7-7--7---7-7---7---7-7---7--7-7---7----7-7---7--7-7---7-----
D-0------------------------------------------------------------------------------
A-------------------0------------------------------------------------------------
E-------------------------------------7-------------------3----------------------


                                      OU  

  D               A                B                G   

e-----0-------0--------0-------0--------0-------0--------3-------3---------------
B---3--3----3--3-----3--3----3--3-----3--3----3--3-----3--3----3--3--------------
G--2-2--2--2-2--2---2-2--2--2-2--2---2-2--2--2-2--2---0-0--0--0-0--0-------------
D-0------------------------------------------------------------------------------
A-----------------0----------------2---------------------------------------------
E---------------------------------------------------3----------------------------


Solo + D A E G


e--2-2-2-2-3-2-3-2-5-5-5-5-5-----------------------------------------------------
B----------------------------5-5-5-5-5-5-3-3-3-3-3-3-----------------------------
G--------------------------------------------------------------------------------
D--------------------------------------------------------------------------------
A--------------------------------------------------------------------------------
E--------------------------------------------------------------------------------


  D                              A 
Estou Sozinho no meu quarto já é quase madrugada
        B                    G  
Velhos livros e revistas e a tv fora do ar 
     D                       A    
Os amigos imagine estão com suas namoradas 
      B                         G 
E eu aqui na solitária sem ninguém pra conversar

Solo + ( Base D A B G )

   D                          A
Vou tentar fazer de tudo para encontra você
      B                        G   
Outro dia vi um programa que seria a salvação 
    D                             A    
É daqueles que os casais sempre vão e se dão bem
      B                  G 
Escrevi uma carta a mão pra tentar ir lá também 

(Intr) J
Mas eu não vou desistir vou pra Tv só pra encontrar você
Mas eu não vou desistir entra no monitor encontra um grande amor 

  D                                 A  
Eu sei que antes eu não era um cara muito preocupado 
    B                        G  
Mas hoje sinto a dor de quem já foi abandonado
    D                 A 
Coloquei minha foto, nos classificados 

      B                     G            
E grudei no telefone esperando ser chamado 

(Solo + Base)

Rif 2:                         
                               LAbafado  

e-------------------------------------------------------------------------------
B-------------------------------------------------------------------------------
G----------------------------------7777-9999-7777-------------------------------
D----------------------------------7777-9999-7777-------------------------------
A-55555-7777-5555-7s9s7-5s7s5-4s5--5555-7777-5555--9-7-5-7-5-4-5----------------
E-------------------------------------------------------------------------------


    D                      A 
Vão abrindo as cortinas do namoro na tv 
       B                         G 
Ela veio ao meu encontro eu não parava de tremer 
     D                           A
A audiência foi a mil quando abriu o meu coração 
   B                           G
E diante de milhões ela sorriu e medisse disse não !   

  D                                 A  
Eu sei que antes eu não era um cara muito preocupado 
    B                        G  
Mas hoje sinto a dor de quem já foi abandonado
    D                 A 
Coloquei minha foto, nos classificados 
      B                     G            
E grudei no telefone esperando ser chamado 

(Solo + Base)D

Contador de Cliques