-

Pamonha de piracicaba

The flanders

Intro: (A D E)

A                   D        E
Tudo começou aos 15 anos de idade
     A                  D             E
Terminar o colegial e entrar pra faculdade
        A                           D          E
Eram os planos de Arnaldinho que queria ser Doutor
       A                     D         E
Mas no meio do caminho o seu sonho desabou

Solo 1

E|-5-4-5-----5-5-4-4-5--|---5-5-4-4-5--7-5-4-5-
B|-------5-5------------|-5--------------------
G|----------------------|----------------------
D|----------------------|----------------------
A|----------------------|----------------------
E|----------------------|----------------------


     A                        D        E
Na entrada da escola um amigo lhe ofereceu
   A                       D        E
Um troço embrulhado e logo ele percebeu
    A                       D         E
Deu uma viajada achando que era ser machão
     A                     D          E
E se afundou no vício e acabou na solidão
Solo 1
A                       D           E
No início o negócio parecia que era bom
       A                      D             E
Quem dizia ser amigo foi quem lhe deixou na mão
       A                   D           E
Pra comprar até roubou e andou de camburão
       A                         D       E
Passou dias no fradão tentando a recuperação
         A                  D        E
Quando ouvia a Variant já ficava ligadão
      A                           D          E
Era entrega à domicílio, pra resistir que afição
    A                    D      E
Mas veja só Arnaldo, a sua situação
        A                            D           E
Pra ser livre de verdade tem que ter Deus no coração

Refrão: Riff


  A        D       E  
E|-5-5-5-5--5-5-5-5/7-7-7-7----------------------------
B|-5-5-5-5--7-7-7-7/9-9-9-9----------------------------
G|-6-6-6-6--7-7-7-7/9-9-9-9----------------------------
D|-----------------------------------------------------
A|-----------------------------------------------------
E|-----------------------------------------------------


  A                 D
Pamonha, pamonha, pamonha...
  E              A
Pamonha de piracicaba
A                    D
Larga desse vício, Arnaldo
      E                     A
Desse jeito esse menino se acaba (2x)
(A D E) 2x
Riff 13x (A D E)
Refrão 3x
Finalizar com (A D E) + Solo 1 (3x)
Agora é só tocar meus caros amigos  

Contador de Cliques