-

Parabens

The flanders

Intro: Riff1 2x
Riff1

E---------------------------------------
B---------------------------------------
G------------------------------------4--
D-6-6-6-6-6-6-----------6-6-6-6-6-6--4--
A-4-4-4-4-4-4--7-6-7-6--4-4-4-4-4-4--2--
E--------------5-4-5-4------------------

1ª parte
  C#m               A             E
Desde que você resolveu experimentar
  C#m                B
Novas emoções sem se preocupar
  C#m                A                E
Em valorizar o que em casa você aprendeu
C#m               B
Numa educação exemplar
C#m                   A                 E
Você percebeu que a saída não é se consumir
C#m                   B
Nem "AS" para a dor
C#m                     A                  E
Que não é legal encher a cara para se divertir
C#m                          B
Nem cheirar carreiras pra sorrir
(E Bm C#m A) e repetir 1ª parte
Refrão
E        Bm            C#m       A
Parabéns, você é um ótimo observador
    E          Bm           C#m
Não sabe muito bem se dar valor
E        Bm            C#m       A
Parabéns, você é um ótimo observador
      E              Bm     E
Só falta agora um pouco de amor
E
É pique, é pique, é pique é pique é pique!!!
Solo de passagem:

E-------------------------------------------------------
B-------2-2-2-2-2-2-2-2-----------2-2-2-2-2-2-2-2---0~--
G------------------------2-1-2-1------------------------
D-------------------------------------------------------
A-------------------------------------------------------
E-4-5-7-------------------------------------------------

(C#m A C#m B)
Refrão 2X e finalizar com E Bm C#m A

Contador de Cliques