-

Santo anjo

The flanders

Intro: E5  A5  E5  A5  E5  A5  B5
Solo 1:

E|-0-0-0-0-2-2-0--7-7-5-4-0-|-0-0-0-0-2-2-0--7-7-5-4-7-|
B|--------------------------|--------------------------|
G|--------------------------|--------------------------|
D|--------------------------|--------------------------|
A|--------------------------|--------------------------|
E|--------------------------|--------------------------|


 E5           A5            E5           A5
Subi num pé de manga pra ver meu amor passar
     E5          A5            B5
Ouvi uma voz ao longe bem baixinho a me falar
  E5         A5        E5          A5
Menino desce daí, você pode escorregar
     E5             A5        B5
Como eu não desci caí, ainda bem que você estava lá

(Solo 1)

  E5               A5         E5        A5
Andando ao lado da Dutra resolvi atravessar
         E5             A5          B5
Quando a voz eu ouvi de novo bem baixinho a me falar
  E5              A5                E5             A5
Menino preste atenção, para os dois lados tem que olhar
          E5               A5              B5
Fui feito louco e veio um Scania, cê tava ali pra me salvar
   E5     A5       C#m5        B5
Eu sempre fui um moleque muito doido
E5           A5        C#m5      B5
Cheio de hematomas e cheio de cicatriz
    E5            A5       C#m5             B5
Mas graças ao meu anjo eu ainda não fui pra roça
E5           A5          C#m5            F#m5  E5 (E5)
Mamãe me ensinou essa oração e eu sempre fiz...

Refrão 2x:
E5         A5
Santo anjo do Senhor
E5         A5
Meu zeloso guardador
E5          A5
Que a ti me confiou
  B5
A piedade divina

Me rege, me protege e ilumina!!

(Solo 1)

E5                 A5         E5                  A5
Muitos acidentes depois, resolvi que ia andar de skate
      E5                   A5            B5
Mas a voz que antes era baixinha gritou até se tornar estridente
      E5         A5                  E5                        A5
Nessa coisa você não anda não já não chega no que você já se meteu
       E5                  A5        B5
Eu sou anjo mas não sou de aço você apronta e quem se ferra sou eu!!!
Eu sempre fui...

(Refrão)

Solo 2 - 2x: E5  A5  E5  A5  E5  A5  E5  B5
(2:42)
E|------12----------------12-----------------------------------11-14-|
B|--12b----12b-12^-12^-12^---12b-12-----12----------------12h14------|
G|----------------------------------11b----11b-9/11-13h14------------|
D|-------------------------------------------------------------------|
A|-------------------------------------------------------------------|
E|-------------------------------------------------------------------|


E|-----19------------------------12----14----12----------------14~~--|
B|-19b----19b-19^-19^-19^-17-/12----12----12----14^-14^-14^-12-------|
G|-------------------------------------------------------------------|
D|-------------------------------------------------------------------|
A|-------------------------------------------------------------------|
E|-------------------------------------------------------------------|


Solo 1 - 2x:  E5

Contador de Cliques