-

Sou um anao

The flanders

Intro: B  ( SOLO )

SOLO:
  B            F#           E            F#    E     B              

e---------------------------------------------------------
A-0--7-5-4-5-4-0--7-5-4-5-4-0--7-5-4-5-4-7-9-7-5-7-5-0----
G--------------------------------------------------------- 
D---------------------------------------------------------  2 vez
B---------------------------------------------------------
E---------------------------------------------------------


Em outra Guitarra, Também pode ser feito no baixo esta parte 

e---------------------------------------------------------
A---------------------------------------------------------
G--------------------------------------------------------- 
D---------------------------------------------------------  2 Vez  
B---9-7-6-7-6---9-7-6-7-6---9-7-6-7-6-9-11-9-7-9-7--------
E-7-----------7-----------7------------------------7------


B                                        E   F# 
Procurei em toda parte, tentando encontrar
B                                E E F# F# E F#
Que pudesse meus sonhos, Realizar 
B 
De repente do nada você apareceu 
                                   E
Colocou-me seu braço e beijo me deu
                                F#  
Fez naninha neném carinho também
                                            B 
Quase arrancou minha orelha quando me mordeu 
                                           E E F# F# E F# 
Mas será que isto basta pra as ferida curar


E---------------------------------------------------------
A---------------------------------------------------------
G--------------------------------------------------------- 
D---------------------------------------------------------   
B-7-6-7-9-7-6---------------------------------------------
E-------------7------------------------------------------- 


B                        F#
Você cruzou o meu caminho, mas deixou aqui sozinho
E                             F#                E         
Massacrou sem dó o meu coração que sou um homem boto ilusão
B                         F# 
Você cruzou o meu caminho, mas deixou aqui sozinho
E                             F#                          
Sinto seu amor por vê ele em vão
                  E                  B   
Você é baita mulherão e eu sou um anão

( SOLO: )


B                                        E   F# 
Procurei em toda parte, tentando encontrar
B                                    E E F# F# E F#
Uma garota legal, que quisesse me amar   
B 
De repente do nada você apareceu 
                                   E
Colocou-me seu braço e beijo me deu
                                F#  
Fez naninha neném carinho também
                                            B
Quase arrancou minha orelha quando me mordeu 
                                           E E F# F# E F# 
Mas será que isto basta pra as ferida curar


B-7-6-7-9-7-6---------------------------------------------
E-------------7-------------------------------------------


B                        F#
Você cruzou o meu caminho, mas deixou aqui sozinho
E                             F#                E         
Massacrou sem dó o meu coração que sou um homem boto ilusão
B                         F# 
Você cruzou o meu caminho, mas deixou aqui sozinho
E                             F#                          
Sinto seu amor por vê ele em vão
                   E                  B   
Você é baita mulherão e eu sou um anão

SOLO:


Final da musica

Base: Abafado

e-------------------------------------------------------------------------------
B-------------------------------------------------------------------------------
G-------------------------------------------------------------------------------
D-----------9-9-9-9---------------11-11-11-11------------------------------------
A--9-9-9-9--7-7-7-7--11-11-11-11--9--9--9--9------------------------------------
E--7-7-7-7-----------9--9--9--9-------------------------------------------------


Solo

e-------------------------------------------------------------------------------
B-------------------------------------------------------------------------------
G----4-3-4-6-4-4-4------6-4-6-8s9s8-6-----4-3-4-6-4-4-4---6-4-6-8s9s8-6---------
D-4------------------2-----------------4----------------2-----------------------
A-------------------------------------------------------------------------------
E-------------------------------------------------------------------------------


e-----------------------------------------------------------------------
B-0-7~-0-5~4s5s4s2-0-7~-0-5~4s5s4s2-0-7~-0-5~4s5s4-0-2~-2-4-5-4-2-4-0-7-        
G-----------------------------------------------------------------------    2 X
D-----------------------------------------------------------------------
A-----------------------------------------------------------------------
E-----------------------------------------------------------------------


e-------------------------------------------------------------------------------
B-------------------------------------------------------------------------------
G----4-3-4-6-4-4-4------6-4-6-8s9s8-6-----4-3-4-6-4-4-4---6-4-6-8s9s8-6----------
D-4------------------4-----------------4----------------4-----------------------
A-------------------------------------------------------------------------------
E-------------------------------------------------------------------------------

Contador de Cliques