-

Teu caminho

The flanders

      Riff 1                   

E|----------|                                           
B|----------|
G|----------|       Primeira guitarra
D|---6------|                 
A|---6------|
E|-4--------|


E|-------------|
B|-------------|
G|---5---6-----|    Segunda guitarra
D|---x---x-----|
A|---3---4-----|
E|-------------|


      Riff 2 

E|-------------------|
B|-------------------|
G|---8---10---12-----|      
D|---x---x----x------|
A|---6---8----10-----|
E|-------------------|


     Riff 3
E|---------------------|
B|---------------------|
G|--10---12------------|     
D|--x----x------ ------|
A|--8-  -10------------|
E|---------------------|

 Eu sinto mais não vou me esconder, atrás dos outros ser como você
Bb       C#           G#          Bb         C#         Eb                     G#     
 O teu caminho não é igual ao meu, fiquei pensando como pode se perder nesse lugar
  (Riff 2)              C#               Eb
 Se alguém tem que mudar hoje eu sei que não sou eu
G#  (Riff 2)          C#               Eb   
 Não me venha lamentar tudo que você perdeu
F   (Riff 3)    C#                 F   C# 
 Escolheu se amarrar nesse canto vazio
F   (Riff 3)     C#            Eb
 Eu tentei te avisar mais você nunca quis me escutar

Riff 1

G#                          C       C#   G#                         C    C# 
 Não sei porque mais quer pagar pra ver,    o preço é alto e cobram de você
Bb              C#           G#        Bb         C#          Eb                  
 Não se esqueça eu não vou fugir daqui, pra constatar que o melhor ainda esta por vir
G#  (Riff 2)
 Se alguem tem que mudar...
G#      C#  Eb        G#     C#  Eb   (Riff 3)
 Não eu não   quis te ver assim (não)

 solo: (G# C# Eb)


E|-----------------------11---11-----9------11-----8------8------8-----8-------|
B|--9---9---9---9-----------9-----9------9------9-----9-------9-----9------9---|
G|----8---8---8---8------------------------------------------------------------|     
D|-----------------------------------------------------------------------------|
A|-----------------------------------------------------------------------------|
E|-----------------------------------------------------------------------------|
                        |------------------------------------------------------|
                                                   4x



Bb       C#           G#          Bb         C#         Eb                     G#
 O teu caminho não é igual ao meu, fiquei pensando como pode se perder nesse lugar
  (Riff 2)              C#               Eb
 Se alguém tem que mudar hoje eu sei que não sou eu
G#  (Riff 2)          C#          Eb   
 Não me venha lamentar tudo que você perdeu
F   (Riff 3)    C#                 F   C# 
 Escolheu se amarrar nesse canto vazio
F   (Riff 3)     C#            Eb
 Eu tentei te avisar mais você nunca quis me escutar

 Riff 1 
 Não

Contador de Cliques