-

Velha cicatriz

The flanders

Solo


e|---------------------------------------------------------
A|-6-4-3------6-4-3-------4-----4--------------------------
G|------5-3-5-------5-3-5---3-3---3-3-5-3~----------------- 
D|---------------------------------------------------------  2 vez
B|---------------------------------------------------------
E|---------------------------------------------------------


Bb                      G                                  F  
Ela viu seu sonho acabar, será que um dia voltaria acreditar
                         D#                                    
E viver uma nova Historia para traços que trazia na memória 

Base Abafado : Bb G F D# + Solo 

Bb                   G                              F  
Sua tatuagem escondia,as verdadeira marcas que trazia 
                        D#                                C  
Saudade do tempo perdido,por enquanto me passei para o ouvido


Rif:           ( Esta parte a baixo é tocada + - Assim )  


   Bb     F         G         D#         Bb       
e|-----------------------------------------------------------
A|-----------------------------------------------------------
G|--------10-10-10--12-12-12--8-8-8--------------------------
D|-8-8-8--10-10-10--12-12-12--8-8-8--------8-----------------
B|-8-8-8--8--8--8---10-10-10--6-6-6-8-6-5--8-----------------
E|-6-6-6---------------------------------6-6-----------------


Aaa aa aaaaaaaa
Bb                             F                       G
Ela só queria encontra o amor, e apagar a velha cicatriz (Aaa aa aaaaaaa)
                 D#   
Será que um dia voltaria a ser feliz 

Aaa aa aaaaaaaaa

Bb                             F                       G
Ela só queria encontra o amor, e apagar a velha cicatriz (Aaa aa aaaaaaa)
                 D#   
Será que um dia voltaria a ser feliz 


Solo 2 + BASE (Bb  F# G#  D#  Bb )
  

   Bb                  F#                  G# 
e|---------------------------------------------------------
A|--------------------------------------------------------
G|--------------------------------------------------------- 
D|---------------------------------------------------------  
B|--5-6-8-6-5-5-6-8-6-5-5-6-8-6-5-5-6-8-6-5-5-6-8-6-5------
E|-6---------6---------6---------6---------6---------------


            D#                   Bb  F# G#    D#    Bb
e|---------------------------------------------------------
A|---------------------------------------------------------
G|----------------------------------------6---6/8---8------ 
D|---------------------------------3---3/-4---4/6---6-8----  
B|--5-6-8-6-5-5-6-8-6-5-5-6-8-6-5--1---1/-------------6----
E|-6---------6---------6-----------------------------------



Bb                               F#
Os olhos verdes já não tem mais brilho
                               G#
O trem da vida andar fora dos trilhos 
                       D#                            Bb F# G# D#
Tudo me parece diferente bem mais triste que antigamente
Bb                             G  
Se hoje a vida é de enlouquecer, quem é normal ?
             F                                D# 
Eu quero saber mas só pergunta ela sempre dormia
                           C
sobre os livros de psicologiaaa

Rif:

Aaa aa aaaaaaaa
Bb                             F                       G
Ela só queria encontra o amor, e apagar a velha cicatriz (Aaa aa aaaaaaa)
                 D#   
Será que um dia voltaria a ser feliz 

Aaa aa aaaaaaaaa

Bb                             F                       G
Ela só queria encontra o amor, e apagar a velha cicatriz (Aaa aa aaaaaaa)
                 D#   
Será que um dia voltaria a ser feliz 

Base Abafado : Bb G F D# + Solo


e|---------------------------------------------------------
A|-6-4-3------6-4-3-------4-----4--------------------------
G|------5-3-5-------5-3-5---3-3---3-3-5-3~----------------- 
D|---------------------------------------------------------  2 vez
B|---------------------------------------------------------
E|---------------------------------------------------------


Ai Galera qual quer duvida sobre a musica mandem e-mail. 
Esta musica é demais+ + + + + + + + + + + + + + + + + + + + + 
Assi: Edson Cruzeiro

Contador de Cliques